ISO-10303-21;
HEADER;
FILE_DESCRIPTION((''),'2;1');
FILE_NAME('85866WSM','2025-06-20T11:59:39',('SYSTEM'),(''),
'CREO PARAMETRIC BY PTC INC, 2023294','CREO PARAMETRIC BY PTC INC, 2023294','');
FILE_SCHEMA(('CONFIG_CONTROL_DESIGN'));
ENDSEC;
DATA;
#1=DIRECTION('',(8.087871096341E-2,9.929311152553E-1,-8.687021624683E-2));
#2=VECTOR('',#1,1.891718658925E-2);
#3=CARTESIAN_POINT('',(-5.032237996644E-1,-1.878346317758E-2,
4.165856309346E-1));
#4=LINE('',#3,#2);
#5=DIRECTION('',(6.814164704418E-1,-1.007464392353E-12,-7.318958900080E-1));
#6=VECTOR('',#5,2.245319467213E-3);
#7=CARTESIAN_POINT('',(-4.879110779597E-1,-1.878346317758E-2,
4.165856309346E-1));
#8=LINE('',#7,#6);
#9=DIRECTION('',(-6.814164704460E-1,1.009009583128E-12,7.318958900042E-1));
#10=VECTOR('',#9,2.245319467238E-3);
#11=CARTESIAN_POINT('',(-5.016938019980E-1,-1.878346317758E-2,
4.149422908448E-1));
#12=LINE('',#11,#10);
#13=DIRECTION('',(1.E0,1.046766553136E-13,1.674826485018E-12));
#14=VECTOR('',#13,1.531272170476E-2);
#15=CARTESIAN_POINT('',(-5.032237996644E-1,-1.878346317758E-2,
4.165856309346E-1));
#16=LINE('',#15,#14);
#17=DIRECTION('',(8.087871096175E-2,9.929311152555E-1,-8.687021624654E-2));
#18=VECTOR('',#17,1.891718658921E-2);
#19=CARTESIAN_POINT('',(-4.879110779597E-1,-1.878346317758E-2,
4.165856309346E-1));
#20=LINE('',#19,#18);
#21=DIRECTION('',(2.364256291041E-13,-1.E0,-1.471749541173E-12));
#22=VECTOR('',#21,1.878346317753E-2);
#23=CARTESIAN_POINT('',(-4.863810802933E-1,-5.387125930530E-14,
4.149422908448E-1));
#24=LINE('',#23,#22);
#25=DIRECTION('',(-1.E0,2.156218260614E-12,-2.269353635549E-12));
#26=VECTOR('',#25,1.531272170473E-2);
#27=CARTESIAN_POINT('',(-4.863810802933E-1,-5.387125930530E-14,
4.149422908448E-1));
#28=LINE('',#27,#26);
#29=DIRECTION('',(-2.305149883761E-13,-1.E0,-1.471749541170E-12));
#30=VECTOR('',#29,1.878346317756E-2);
#31=CARTESIAN_POINT('',(-5.016938019980E-1,-2.085368914588E-14,
4.149422908448E-1));
#32=LINE('',#31,#30);
#33=DIRECTION('',(1.E0,1.046766553138E-13,2.262103304444E-12));
#34=VECTOR('',#33,1.531272170473E-2);
#35=CARTESIAN_POINT('',(-5.016938019980E-1,-1.878346317758E-2,
4.149422908448E-1));
#36=LINE('',#35,#34);
#37=CARTESIAN_POINT('',(-5.032237996644E-1,-1.878346317758E-2,
4.165856309346E-1));
#38=CARTESIAN_POINT('',(-5.016938019980E-1,-2.085484562819E-14,
4.149422908448E-1));
#39=VERTEX_POINT('',#37);
#40=VERTEX_POINT('',#38);
#41=CARTESIAN_POINT('',(-4.863810802933E-1,-5.387125930530E-14,
4.149422908448E-1));
#42=VERTEX_POINT('',#41);
#43=CARTESIAN_POINT('',(-4.879110779597E-1,-1.878346317758E-2,
4.165856309346E-1));
#44=VERTEX_POINT('',#43);
#45=CARTESIAN_POINT('',(-5.016938019980E-1,-1.878346317758E-2,
4.149422908448E-1));
#46=VERTEX_POINT('',#45);
#47=CARTESIAN_POINT('',(-4.863810802933E-1,-1.878346317758E-2,
4.149422908448E-1));
#48=VERTEX_POINT('',#47);
#49=CARTESIAN_POINT('',(-3.939110231192E-1,1.905E-2,4.132756318047E-1));
#50=DIRECTION('',(0.E0,-8.715574274766E-2,-9.961946980917E-1));
#51=DIRECTION('',(0.E0,-9.961946980917E-1,8.715574274766E-2));
#52=AXIS2_PLACEMENT_3D('',#49,#50,#51);
#53=PLANE('',#52);
#55=ORIENTED_EDGE('',*,*,#54,.T.);
#57=ORIENTED_EDGE('',*,*,#56,.F.);
#59=ORIENTED_EDGE('',*,*,#58,.F.);
#61=ORIENTED_EDGE('',*,*,#60,.F.);
#62=EDGE_LOOP('',(#55,#57,#59,#61));
#63=FACE_OUTER_BOUND('',#62,.F.);
#64=ADVANCED_FACE('',(#63),#53,.F.);
#65=CARTESIAN_POINT('',(-5.032237996644E-1,-1.878346317758E-2,
4.165856309345E-1));
#66=DIRECTION('',(-7.318958900002E-1,0.E0,-6.814164704502E-1));
#67=DIRECTION('',(-6.814164704502E-1,0.E0,7.318958900002E-1));
#68=AXIS2_PLACEMENT_3D('',#65,#66,#67);
#69=PLANE('',#68);
#71=ORIENTED_EDGE('',*,*,#70,.F.);
#73=ORIENTED_EDGE('',*,*,#72,.F.);
#74=ORIENTED_EDGE('',*,*,#54,.F.);
#75=EDGE_LOOP('',(#71,#73,#74));
#76=FACE_OUTER_BOUND('',#75,.F.);
#77=ADVANCED_FACE('',(#76),#69,.T.);
#78=CARTESIAN_POINT('',(-4.778126812391E-1,-1.878346317758E-2,4.445E-1));
#79=DIRECTION('',(0.E0,1.E0,0.E0));
#80=DIRECTION('',(1.E0,0.E0,0.E0));
#81=AXIS2_PLACEMENT_3D('',#78,#79,#80);
#82=PLANE('',#81);
#84=ORIENTED_EDGE('',*,*,#83,.T.);
#86=ORIENTED_EDGE('',*,*,#85,.F.);
#87=ORIENTED_EDGE('',*,*,#70,.T.);
#88=ORIENTED_EDGE('',*,*,#60,.T.);
#89=EDGE_LOOP('',(#84,#86,#87,#88));
#90=FACE_OUTER_BOUND('',#89,.F.);
#91=ADVANCED_FACE('',(#90),#82,.F.);
#92=CARTESIAN_POINT('',(-4.744167418499E-1,-1.878346317758E-2,
4.020916326747E-1));
#93=DIRECTION('',(7.318958900002E-1,0.E0,6.814164704502E-1));
#94=DIRECTION('',(0.E0,-1.E0,0.E0));
#95=AXIS2_PLACEMENT_3D('',#92,#93,#94);
#96=PLANE('',#95);
#97=ORIENTED_EDGE('',*,*,#58,.T.);
#99=ORIENTED_EDGE('',*,*,#98,.T.);
#100=ORIENTED_EDGE('',*,*,#83,.F.);
#101=EDGE_LOOP('',(#97,#99,#100));
#102=FACE_OUTER_BOUND('',#101,.F.);
#103=ADVANCED_FACE('',(#102),#96,.T.);
#104=CARTESIAN_POINT('',(-5.016938019980E-1,-1.878346317758E-2,
4.149422908448E-1));
#105=DIRECTION('',(0.E0,0.E0,-1.E0));
#106=DIRECTION('',(0.E0,-1.E0,0.E0));
#107=AXIS2_PLACEMENT_3D('',#104,#105,#106);
#108=PLANE('',#107);
#109=ORIENTED_EDGE('',*,*,#98,.F.);
#110=ORIENTED_EDGE('',*,*,#56,.T.);
#111=ORIENTED_EDGE('',*,*,#72,.T.);
#112=ORIENTED_EDGE('',*,*,#85,.T.);
#113=EDGE_LOOP('',(#109,#110,#111,#112));
#114=FACE_OUTER_BOUND('',#113,.F.);
#115=ADVANCED_FACE('',(#114),#108,.T.);
#118=DIRECTION('',(-8.087871096341E-2,9.929311152553E-1,8.687021624683E-2));
#119=VECTOR('',#118,1.891718658925E-2);
#120=CARTESIAN_POINT('',(5.032237996644E-1,-1.878346317758E-2,
-4.165856309346E-1));
#121=LINE('',#120,#119);
#122=DIRECTION('',(-6.814164704418E-1,-1.007464392353E-12,7.318958900080E-1));
#123=VECTOR('',#122,2.245319467213E-3);
#124=CARTESIAN_POINT('',(4.879110779597E-1,-1.878346317758E-2,
-4.165856309346E-1));
#125=LINE('',#124,#123);
#126=DIRECTION('',(6.814164704460E-1,1.009009583128E-12,-7.318958900042E-1));
#127=VECTOR('',#126,2.245319467238E-3);
#128=CARTESIAN_POINT('',(5.016938019980E-1,-1.878346317758E-2,
-4.149422908448E-1));
#129=LINE('',#128,#127);
#130=DIRECTION('',(-1.E0,1.046766553136E-13,-1.674826485018E-12));
#131=VECTOR('',#130,1.531272170476E-2);
#132=CARTESIAN_POINT('',(5.032237996644E-1,-1.878346317758E-2,
-4.165856309346E-1));
#133=LINE('',#132,#131);
#134=DIRECTION('',(-8.087871096175E-2,9.929311152555E-1,8.687021624654E-2));
#135=VECTOR('',#134,1.891718658921E-2);
#136=CARTESIAN_POINT('',(4.879110779597E-1,-1.878346317758E-2,
-4.165856309346E-1));
#137=LINE('',#136,#135);
#138=DIRECTION('',(-2.364256291041E-13,-1.E0,1.471749541173E-12));
#139=VECTOR('',#138,1.878346317753E-2);
#140=CARTESIAN_POINT('',(4.863810802933E-1,-5.387819819920E-14,
-4.149422908448E-1));
#141=LINE('',#140,#139);
#142=DIRECTION('',(1.E0,2.156520357743E-12,2.269353635549E-12));
#143=VECTOR('',#142,1.531272170473E-2);
#144=CARTESIAN_POINT('',(4.863810802933E-1,-5.387819819920E-14,
-4.149422908448E-1));
#145=LINE('',#144,#143);
#146=DIRECTION('',(2.305149883761E-13,-1.E0,1.471749541170E-12));
#147=VECTOR('',#146,1.878346317756E-2);
#148=CARTESIAN_POINT('',(5.016938019980E-1,-2.085600211051E-14,
-4.149422908448E-1));
#149=LINE('',#148,#147);
#150=DIRECTION('',(-1.E0,1.046766553138E-13,-2.262103304444E-12));
#151=VECTOR('',#150,1.531272170473E-2);
#152=CARTESIAN_POINT('',(5.016938019980E-1,-1.878346317758E-2,
-4.149422908448E-1));
#153=LINE('',#152,#151);
#154=CARTESIAN_POINT('',(5.032237996644E-1,-1.878346317758E-2,
-4.165856309346E-1));
#155=CARTESIAN_POINT('',(5.016938019980E-1,-2.085484562819E-14,
-4.149422908448E-1));
#156=VERTEX_POINT('',#154);
#157=VERTEX_POINT('',#155);
#158=CARTESIAN_POINT('',(4.863810802933E-1,-5.387819819920E-14,
-4.149422908448E-1));
#159=VERTEX_POINT('',#158);
#160=CARTESIAN_POINT('',(4.879110779597E-1,-1.878346317758E-2,
-4.165856309346E-1));
#161=VERTEX_POINT('',#160);
#162=CARTESIAN_POINT('',(5.016938019980E-1,-1.878346317758E-2,
-4.149422908448E-1));
#163=VERTEX_POINT('',#162);
#164=CARTESIAN_POINT('',(4.863810802933E-1,-1.878346317758E-2,
-4.149422908448E-1));
#165=VERTEX_POINT('',#164);
#166=CARTESIAN_POINT('',(3.939110231192E-1,1.905E-2,-4.132756318047E-1));
#167=DIRECTION('',(0.E0,-8.715574274766E-2,9.961946980917E-1));
#168=DIRECTION('',(-1.E0,0.E0,0.E0));
#169=AXIS2_PLACEMENT_3D('',#166,#167,#168);
#170=PLANE('',#169);
#172=ORIENTED_EDGE('',*,*,#171,.T.);
#174=ORIENTED_EDGE('',*,*,#173,.F.);
#176=ORIENTED_EDGE('',*,*,#175,.F.);
#178=ORIENTED_EDGE('',*,*,#177,.F.);
#179=EDGE_LOOP('',(#172,#174,#176,#178));
#180=FACE_OUTER_BOUND('',#179,.F.);
#181=ADVANCED_FACE('',(#180),#170,.F.);
#182=CARTESIAN_POINT('',(5.032237996644E-1,-1.878346317758E-2,
-4.165856309345E-1));
#183=DIRECTION('',(7.318958900002E-1,0.E0,6.814164704502E-1));
#184=DIRECTION('',(0.E0,-1.E0,0.E0));
#185=AXIS2_PLACEMENT_3D('',#182,#183,#184);
#186=PLANE('',#185);
#188=ORIENTED_EDGE('',*,*,#187,.F.);
#190=ORIENTED_EDGE('',*,*,#189,.F.);
#191=ORIENTED_EDGE('',*,*,#171,.F.);
#192=EDGE_LOOP('',(#188,#190,#191));
#193=FACE_OUTER_BOUND('',#192,.F.);
#194=ADVANCED_FACE('',(#193),#186,.T.);
#195=CARTESIAN_POINT('',(4.778126812391E-1,-1.878346317758E-2,-4.445E-1));
#196=DIRECTION('',(0.E0,1.E0,0.E0));
#197=DIRECTION('',(1.E0,0.E0,0.E0));
#198=AXIS2_PLACEMENT_3D('',#195,#196,#197);
#199=PLANE('',#198);
#201=ORIENTED_EDGE('',*,*,#200,.T.);
#203=ORIENTED_EDGE('',*,*,#202,.F.);
#204=ORIENTED_EDGE('',*,*,#187,.T.);
#205=ORIENTED_EDGE('',*,*,#177,.T.);
#206=EDGE_LOOP('',(#201,#203,#204,#205));
#207=FACE_OUTER_BOUND('',#206,.F.);
#208=ADVANCED_FACE('',(#207),#199,.F.);
#209=CARTESIAN_POINT('',(4.744167418499E-1,-1.878346317758E-2,
-4.020916326747E-1));
#210=DIRECTION('',(-7.318958900002E-1,0.E0,-6.814164704502E-1));
#211=DIRECTION('',(-6.814164704502E-1,0.E0,7.318958900002E-1));
#212=AXIS2_PLACEMENT_3D('',#209,#210,#211);
#213=PLANE('',#212);
#214=ORIENTED_EDGE('',*,*,#175,.T.);
#216=ORIENTED_EDGE('',*,*,#215,.T.);
#217=ORIENTED_EDGE('',*,*,#200,.F.);
#218=EDGE_LOOP('',(#214,#216,#217));
#219=FACE_OUTER_BOUND('',#218,.F.);
#220=ADVANCED_FACE('',(#219),#213,.T.);
#221=CARTESIAN_POINT('',(5.016938019980E-1,-1.878346317758E-2,
-4.149422908448E-1));
#222=DIRECTION('',(0.E0,0.E0,1.E0));
#223=DIRECTION('',(1.E0,0.E0,0.E0));
#224=AXIS2_PLACEMENT_3D('',#221,#222,#223);
#225=PLANE('',#224);
#226=ORIENTED_EDGE('',*,*,#215,.F.);
#227=ORIENTED_EDGE('',*,*,#173,.T.);
#228=ORIENTED_EDGE('',*,*,#189,.T.);
#229=ORIENTED_EDGE('',*,*,#202,.T.);
#230=EDGE_LOOP('',(#226,#227,#228,#229));
#231=FACE_OUTER_BOUND('',#230,.F.);
#232=ADVANCED_FACE('',(#231),#225,.T.);
#235=DIRECTION('',(-8.087871096222E-2,9.929311152554E-1,-8.687021624654E-2));
#236=VECTOR('',#235,1.891718658922E-2);
#237=CARTESIAN_POINT('',(4.879110779597E-1,-1.878346317758E-2,
4.165856309346E-1));
#238=LINE('',#237,#236);
#239=DIRECTION('',(1.E0,2.153197289320E-12,-2.254852973341E-12));
#240=VECTOR('',#239,1.531272170473E-2);
#241=CARTESIAN_POINT('',(4.863810802933E-1,-5.394527417361E-14,
4.149422908448E-1));
#242=LINE('',#241,#240);
#243=DIRECTION('',(-1.E0,-1.046766553137E-13,1.703827809436E-12));
#244=VECTOR('',#243,1.531272170474E-2);
#245=CARTESIAN_POINT('',(5.032237996644E-1,-1.878346317758E-2,
4.165856309346E-1));
#246=LINE('',#245,#244);
#247=DIRECTION('',(-6.814164704460E-1,-1.007464392342E-12,-7.318958900042E-1));
#248=VECTOR('',#247,2.245319467237E-3);
#249=CARTESIAN_POINT('',(5.032237996644E-1,-1.878346317758E-2,
4.165856309346E-1));
#250=LINE('',#249,#248);
#251=DIRECTION('',(-1.E0,-1.046766553139E-13,2.262103304446E-12));
#252=VECTOR('',#251,1.531272170472E-2);
#253=CARTESIAN_POINT('',(5.016938019980E-1,-1.878346317758E-2,
4.149422908448E-1));
#254=LINE('',#253,#252);
#255=DIRECTION('',(6.814164704418E-1,1.009009583138E-12,7.318958900080E-1));
#256=VECTOR('',#255,2.245319467214E-3);
#257=CARTESIAN_POINT('',(4.863810802933E-1,-1.878346317758E-2,
4.149422908448E-1));
#258=LINE('',#257,#256);
#259=DIRECTION('',(-8.087871096294E-2,9.929311152553E-1,-8.687021624683E-2));
#260=VECTOR('',#259,1.891718658925E-2);
#261=CARTESIAN_POINT('',(5.032237996644E-1,-1.878346317758E-2,
4.165856309346E-1));
#262=LINE('',#261,#260);
#263=DIRECTION('',(-2.423362698313E-13,-1.E0,-1.465838900443E-12));
#264=VECTOR('',#263,1.878346317756E-2);
#265=CARTESIAN_POINT('',(5.016938019980E-1,-2.097396330688E-14,
4.149422908448E-1));
#266=LINE('',#265,#264);
#267=DIRECTION('',(2.275596680127E-13,-1.E0,-1.471749541173E-12));
#268=VECTOR('',#267,1.878346317753E-2);
#269=CARTESIAN_POINT('',(4.863810802933E-1,-5.394527417361E-14,
4.149422908448E-1));
#270=LINE('',#269,#268);
#271=CARTESIAN_POINT('',(4.879110779597E-1,-1.878346317758E-2,
4.165856309346E-1));
#272=CARTESIAN_POINT('',(4.863810802933E-1,-5.394643065593E-14,
4.149422908448E-1));
#273=VERTEX_POINT('',#271);
#274=VERTEX_POINT('',#272);
#275=CARTESIAN_POINT('',(5.016938019980E-1,-2.097396330688E-14,
4.149422908448E-1));
#276=VERTEX_POINT('',#275);
#277=CARTESIAN_POINT('',(5.032237996644E-1,-1.878346317758E-2,
4.165856309346E-1));
#278=VERTEX_POINT('',#277);
#279=CARTESIAN_POINT('',(4.863810802933E-1,-1.878346317758E-2,
4.149422908448E-1));
#280=VERTEX_POINT('',#279);
#281=CARTESIAN_POINT('',(5.016938019980E-1,-1.878346317758E-2,
4.149422908448E-1));
#282=VERTEX_POINT('',#281);
#283=CARTESIAN_POINT('',(3.939110231192E-1,1.905E-2,4.132756318047E-1));
#284=DIRECTION('',(0.E0,8.715574274766E-2,9.961946980917E-1));
#285=DIRECTION('',(1.E0,0.E0,0.E0));
#286=AXIS2_PLACEMENT_3D('',#283,#284,#285);
#287=PLANE('',#286);
#289=ORIENTED_EDGE('',*,*,#288,.T.);
#291=ORIENTED_EDGE('',*,*,#290,.T.);
#293=ORIENTED_EDGE('',*,*,#292,.F.);
#295=ORIENTED_EDGE('',*,*,#294,.T.);
#296=EDGE_LOOP('',(#289,#291,#293,#295));
#297=FACE_OUTER_BOUND('',#296,.F.);
#298=ADVANCED_FACE('',(#297),#287,.T.);
#299=CARTESIAN_POINT('',(4.744167418499E-1,-1.878346317758E-2,
4.020916326747E-1));
#300=DIRECTION('',(7.318958900002E-1,0.E0,-6.814164704502E-1));
#301=DIRECTION('',(0.E0,-1.E0,0.E0));
#302=AXIS2_PLACEMENT_3D('',#299,#300,#301);
#303=PLANE('',#302);
#305=ORIENTED_EDGE('',*,*,#304,.F.);
#307=ORIENTED_EDGE('',*,*,#306,.F.);
#308=ORIENTED_EDGE('',*,*,#288,.F.);
#309=EDGE_LOOP('',(#305,#307,#308));
#310=FACE_OUTER_BOUND('',#309,.F.);
#311=ADVANCED_FACE('',(#310),#303,.F.);
#312=CARTESIAN_POINT('',(4.778126812391E-1,-1.878346317758E-2,4.445E-1));
#313=DIRECTION('',(0.E0,-1.E0,0.E0));
#314=DIRECTION('',(0.E0,0.E0,-1.E0));
#315=AXIS2_PLACEMENT_3D('',#312,#313,#314);
#316=PLANE('',#315);
#318=ORIENTED_EDGE('',*,*,#317,.T.);
#320=ORIENTED_EDGE('',*,*,#319,.T.);
#321=ORIENTED_EDGE('',*,*,#304,.T.);
#322=ORIENTED_EDGE('',*,*,#294,.F.);
#323=EDGE_LOOP('',(#318,#320,#321,#322));
#324=FACE_OUTER_BOUND('',#323,.F.);
#325=ADVANCED_FACE('',(#324),#316,.T.);
#326=CARTESIAN_POINT('',(5.032237996644E-1,-1.878346317758E-2,
4.165856309345E-1));
#327=DIRECTION('',(-7.318958900002E-1,0.E0,6.814164704502E-1));
#328=DIRECTION('',(0.E0,1.E0,0.E0));
#329=AXIS2_PLACEMENT_3D('',#326,#327,#328);
#330=PLANE('',#329);
#331=ORIENTED_EDGE('',*,*,#292,.T.);
#333=ORIENTED_EDGE('',*,*,#332,.T.);
#334=ORIENTED_EDGE('',*,*,#317,.F.);
#335=EDGE_LOOP('',(#331,#333,#334));
#336=FACE_OUTER_BOUND('',#335,.F.);
#337=ADVANCED_FACE('',(#336),#330,.F.);
#338=CARTESIAN_POINT('',(5.016938019980E-1,-1.878346317758E-2,
4.149422908448E-1));
#339=DIRECTION('',(0.E0,0.E0,1.E0));
#340=DIRECTION('',(1.E0,0.E0,0.E0));
#341=AXIS2_PLACEMENT_3D('',#338,#339,#340);
#342=PLANE('',#341);
#343=ORIENTED_EDGE('',*,*,#332,.F.);
#344=ORIENTED_EDGE('',*,*,#290,.F.);
#345=ORIENTED_EDGE('',*,*,#306,.T.);
#346=ORIENTED_EDGE('',*,*,#319,.F.);
#347=EDGE_LOOP('',(#343,#344,#345,#346));
#348=FACE_OUTER_BOUND('',#347,.F.);
#349=ADVANCED_FACE('',(#348),#342,.F.);
#352=CARTESIAN_POINT('',(0.E0,0.E0,0.E0));
#353=DIRECTION('',(0.E0,0.E0,1.E0));
#354=DIRECTION('',(1.E0,0.E0,0.E0));
#355=AXIS2_PLACEMENT_3D('85866SM_1_3',#352,#353,#354);
#357=DIMENSIONAL_EXPONENTS(0.E0,0.E0,0.E0,0.E0,0.E0,0.E0,0.E0);
#359=PLANE_ANGLE_MEASURE_WITH_UNIT(PLANE_ANGLE_MEASURE(1.745329251994E-2),#358);
#360=(CONVERSION_BASED_UNIT('DEGREE',#359)NAMED_UNIT(*)PLANE_ANGLE_UNIT());
#362=UNCERTAINTY_MEASURE_WITH_UNIT(LENGTH_MEASURE(1.650361137468E-4),#356,
'closure',
'Maximum model space distance between geometric entities at asserted connectivities');
#363=(GEOMETRIC_REPRESENTATION_CONTEXT(3)GLOBAL_UNCERTAINTY_ASSIGNED_CONTEXT((
#362))GLOBAL_UNIT_ASSIGNED_CONTEXT((#356,#360,#361))REPRESENTATION_CONTEXT
('ID1','3'));
#365=APPLICATION_CONTEXT(
'CONFIGURATION CONTROLLED 3D DESIGNS OF MECHANICAL PARTS AND ASSEMBLIES');
#366=APPLICATION_PROTOCOL_DEFINITION('international standard',
'config_control_design',1994,#365);
#367=DESIGN_CONTEXT('',#365,'design');
#368=MECHANICAL_CONTEXT('',#365,'mechanical');
#369=PRODUCT('85866WSM','85866WSM','NOT SPECIFIED',(#368));
#370=PRODUCT_DEFINITION_FORMATION_WITH_SPECIFIED_SOURCE('1','LAST_VERSION',#369,
.MADE.);
#374=PRODUCT_CATEGORY('part','');
#375=PRODUCT_RELATED_PRODUCT_CATEGORY('detail','',(#369));
#376=PRODUCT_CATEGORY_RELATIONSHIP('','',#374,#375);
#377=SECURITY_CLASSIFICATION_LEVEL('unclassified');
#378=SECURITY_CLASSIFICATION('','',#377);
#379=CC_DESIGN_SECURITY_CLASSIFICATION(#378,(#370));
#380=APPROVAL_STATUS('approved');
#381=APPROVAL(#380,'');
#382=CC_DESIGN_APPROVAL(#381,(#378,#370,#371));
#383=CALENDAR_DATE(125,20,6);
#384=COORDINATED_UNIVERSAL_TIME_OFFSET(5,0,.BEHIND.);
#385=LOCAL_TIME(11,59,3.9E1,#384);
#386=DATE_AND_TIME(#383,#385);
#387=APPROVAL_DATE_TIME(#386,#381);
#388=DATE_TIME_ROLE('creation_date');
#389=CC_DESIGN_DATE_AND_TIME_ASSIGNMENT(#386,#388,(#371));
#390=DATE_TIME_ROLE('classification_date');
#391=CC_DESIGN_DATE_AND_TIME_ASSIGNMENT(#386,#390,(#378));
#392=PERSON('UNSPECIFIED','UNSPECIFIED',$,$,$,$);
#393=ORGANIZATION('UNSPECIFIED','UNSPECIFIED','UNSPECIFIED');
#394=PERSON_AND_ORGANIZATION(#392,#393);
#395=APPROVAL_ROLE('approver');
#396=APPROVAL_PERSON_ORGANIZATION(#394,#381,#395);
#397=PERSON_AND_ORGANIZATION_ROLE('creator');
#398=CC_DESIGN_PERSON_AND_ORGANIZATION_ASSIGNMENT(#394,#397,(#370,#371));
#399=PERSON_AND_ORGANIZATION_ROLE('design_supplier');
#400=CC_DESIGN_PERSON_AND_ORGANIZATION_ASSIGNMENT(#394,#399,(#370));
#401=PERSON_AND_ORGANIZATION_ROLE('classification_officer');
#402=CC_DESIGN_PERSON_AND_ORGANIZATION_ASSIGNMENT(#394,#401,(#378));
#403=PERSON_AND_ORGANIZATION_ROLE('design_owner');
#404=CC_DESIGN_PERSON_AND_ORGANIZATION_ASSIGNMENT(#394,#403,(#369));
#54=EDGE_CURVE('',#39,#40,#4,.T.);
#56=EDGE_CURVE('',#42,#40,#28,.T.);
#58=EDGE_CURVE('',#44,#42,#20,.T.);
#60=EDGE_CURVE('',#39,#44,#16,.T.);
#70=EDGE_CURVE('',#46,#39,#12,.T.);
#72=EDGE_CURVE('',#40,#46,#32,.T.);
#83=EDGE_CURVE('',#44,#48,#8,.T.);
#85=EDGE_CURVE('',#46,#48,#36,.T.);
#98=EDGE_CURVE('',#42,#48,#24,.T.);
#116=CLOSED_SHELL('',(#64,#77,#91,#103,#115));
#117=MANIFOLD_SOLID_BREP('',#116);
#171=EDGE_CURVE('',#156,#157,#121,.T.);
#173=EDGE_CURVE('',#159,#157,#145,.T.);
#175=EDGE_CURVE('',#161,#159,#137,.T.);
#177=EDGE_CURVE('',#156,#161,#133,.T.);
#187=EDGE_CURVE('',#163,#156,#129,.T.);
#189=EDGE_CURVE('',#157,#163,#149,.T.);
#200=EDGE_CURVE('',#161,#165,#125,.T.);
#202=EDGE_CURVE('',#163,#165,#153,.T.);
#215=EDGE_CURVE('',#159,#165,#141,.T.);
#233=CLOSED_SHELL('',(#181,#194,#208,#220,#232));
#234=MANIFOLD_SOLID_BREP('',#233);
#288=EDGE_CURVE('',#273,#274,#238,.T.);
#290=EDGE_CURVE('',#274,#276,#242,.T.);
#292=EDGE_CURVE('',#278,#276,#262,.T.);
#294=EDGE_CURVE('',#278,#273,#246,.T.);
#304=EDGE_CURVE('',#280,#273,#258,.T.);
#306=EDGE_CURVE('',#274,#280,#270,.T.);
#317=EDGE_CURVE('',#278,#282,#250,.T.);
#319=EDGE_CURVE('',#282,#280,#254,.T.);
#332=EDGE_CURVE('',#276,#282,#266,.T.);
#350=CLOSED_SHELL('',(#298,#311,#325,#337,#349));
#351=MANIFOLD_SOLID_BREP('',#350);
#356=(LENGTH_UNIT()NAMED_UNIT(*)SI_UNIT($,.METRE.));
#358=(NAMED_UNIT(*)PLANE_ANGLE_UNIT()SI_UNIT($,.RADIAN.));
#361=(NAMED_UNIT(*)SI_UNIT($,.STERADIAN.)SOLID_ANGLE_UNIT());
#364=ADVANCED_BREP_SHAPE_REPRESENTATION('',(#117,#234,#351),#363);
#371=PRODUCT_DEFINITION('design','',#370,#367);
#372=PRODUCT_DEFINITION_SHAPE('','SHAPE FOR 85866WSM.',#371);
#373=SHAPE_DEFINITION_REPRESENTATION(#372,#364);
ENDSEC;
END-ISO-10303-21;
